• ↓
  • ↑
  • ⇑
 
Записи с темой: игра (список заголовков)
23:18 

Я уничтожу тебя, Императора Тьмы - Демона Гастарбайтера!
Скачал Слендер... Чудовищно тормозит =(
Зато в нем даже Стори Мод есть =3

@темы: Игра

18:53 

Я уничтожу тебя, Императора Тьмы - Демона Гастарбайтера!
Со звуком в Морровинде разобрался... Теперь другая проблема =(
Я проплыл с некой спутницей кое-какое место под водой, теперь она не может приплыть обратно, потому что, место того чтобы плыть посередине туннеля, она плывет поверх и все время застревает, ну, а потом после очень долгого времени умирает... И как ее теперь вернуть?

@темы: Игра

13:38 

Я уничтожу тебя, Императора Тьмы - Демона Гастарбайтера!
А квесты гильдии магов весьма интересные =3
Я решил все-таки за мага поиграть, дав ему на всякий случай навык секира. Ну, а также наконец попробовал алхимию... Она правда довольно интересная, я даже тетрадь в честь этого завел, где записываю рецепты.

@темы: Игра

17:04 

Я уничтожу тебя, Императора Тьмы - Демона Гастарбайтера!
Не могу понять что за фигня в Морровинде, при ударе и попадание по мне раздается ужасный стук доспехов, который раза в 4 громче всех остальных звуков... Я в настройках полностью отключал все звуки, но этот чертов звук все равно остается... Мои уши =_= К черту Морровинд с таким ушоубийственным звуком!

@темы: Игра

03:14 

Я уничтожу тебя, Императора Тьмы - Демона Гастарбайтера!
Стащил в Морровинде на 2-ом уровне стеклянные доспехи, а чего добился ты?

@темы: Херня, Игра

18:24 

Я уничтожу тебя, Императора Тьмы - Демона Гастарбайтера!
Так классно играть эту мелодию одновременно с компьютером =3

@темы: Игра, Музыка

23:07 

Я уничтожу тебя, Императора Тьмы - Демона Гастарбайтера!
Какже красиво О_О! Жаль у меня не потянет =(

@темы: Игра

16:28 

Я уничтожу тебя, Императора Тьмы - Демона Гастарбайтера!
16:20 

Я уничтожу тебя, Императора Тьмы - Демона Гастарбайтера!
E E E E E E E E E E E E E E E E E E E E E E E E
E||--------------------------|--------------------------|--------------------------|
B||--------------1-----------|--------------1-----------|--0-----------0-----------|
G||-----------2-----2--------|-----------2-----2--------|-----------0-----0--------|
D||--------2-----------2-----|--------2-----------2-----|--------2-----------2-----|
A||-----0-----------------0--|-----0-----------------0--|-----2-----------------2--|
E||--0--------------------L--|--0--------------------L--|--0--------------------L--|


E E E E E E E E E E E E E E E E E E E E E E E E
-----------------0--------|--------------0--------0--|--1-----------0--------L--|
--------------0-----0-----|--------------------3-----|--------------------3-----|
-----------0-----------0--|--------2-----------------|--------2-----------------|
--------2-----------------|-----2-----2-----2--------|-----3-----3-----3-----3--|
-----2--------------------|--0--------------------L--|--0--------------------L--|
--0--------------------L--|--------------------------|--------------------------|


E E E E E E E E E E E E E E E E E E E E E E E E
--0--------L--0-----2-----|--3-----------------------|--------------------------|
--------------------------|--------------0-----------|--------------0-----------|
--------2-----------------|-----------0-----0--------|-----------0-----0--------|
-----2-----2-----2-----2--|--------2-----------2-----|--------2-----------2-----|
--0--------------------L--|-----2-----------------2--|-----2-----------------2--|
--------------------------|--0--------------------L--|--0--------------------L--|


E E E E E E E E E E E E E E E E E E E E E E E S S
--5-----------------------|--------------------------||---------------0----------0-|
--------------0-----------|--------------1-----------||------------------------3---|
--------2-----------2-----|--------2-----------2-----||*--------2-----------2------|
-----2-----2-----2-----2--|-----2-----2-----2-----2--||*-----2-----2-----2---------|
--0--------------------L--|--0--------------------L--||---0--------------------L---|
--------------------------|--------------------------||----------------------------|


E E E E E E E E E E E E E E E E E E E E E E E E
--1-----------0-----------|--0--------L--0-----2-----|--3-----------------------|
--------------------3-----|--------------------------|--------------0-----------|
--------2-----------------|--------2-----------------|-----------0-----0--------|
-----3-----3-----3-----3--|-----2-----2-----2-----2--|--------2-----------2-----|
--0-----------------L-----|--0--------------------L--|-----2-----------------2--|
--------------------------|--------------------------|--0--------------------L--|


E E E E E E E E E E E E E E E E E E E E E E E E
--5-----------------------|--3-----------------------|--------------------------|
--------------8-----6-----|--------------1-----------|--3-----------------------|
--------5-----------------|--------0-----------0-----|--------------0-----------|
-----7-----7-----7-----7--|-----2-----2-----2-----2--|--------0-----------0-----|
--8--------------------L--|--3--------------------L--|-----2-----2-----2-----2--|
--------------------------|--------------------------|--3--------------------L--|


E E E E E E E E E E E E E E E E E E E E E E E E
-----------------3---------||--------------------------|--------------------------|
--------------3-----3------||--------------1-----------|--------------1-----------|
-----------0-----------0--*||--------2-----------2-----|--------2-----------2-----|
--------0-----------------*||-----2-----2-----2-----2--|-----2-----2-----2-----2--|
-----2---------------------||--0--------------------L--|--0--------------------L--|
--3--------------------L---||--------------------------|--------------------------|


^
E E E E E E E E W
--------------------------|-------------------||
--------------1-----------|--1----------------||
--------2-----------2-----|--2----------------||
-----2-----2-----2-----2--|--2----------------||
--0--------------------L--|--0----------------||
--------------------------|-------------------||

@темы: Готика, Игра, Музыка

15:57 

Я уничтожу тебя, Императора Тьмы - Демона Гастарбайтера!
Разучил тему Morrowind, захотел поиграть в morrowind.

@темы: Игра, Музыка, Херня

22:00 

Я уничтожу тебя, Императора Тьмы - Демона Гастарбайтера!
20:51 

Я уничтожу тебя, Императора Тьмы - Демона Гастарбайтера!
Ребят, а есть на примете какая-нибудь РПГ-шечка, в которой есть дерево способностей и чтобы можно было експу в ней зарабатывать? Скайрим не предлагать.

@темы: Игра

21:48 

Я уничтожу тебя, Императора Тьмы - Демона Гастарбайтера!
20:19 

Я уничтожу тебя, Императора Тьмы - Демона Гастарбайтера!
Наконец накупил себе японских кроссвордов, жизнь прекрасна =3

@темы: Жизненное, Игра

07:35 

Я уничтожу тебя, Императора Тьмы - Демона Гастарбайтера!
На Линуксе периодически развлекаюсь игрой в шахматы с компьютером, но он всегда выигрвает, шахматы мне вообще как-то не даются, а я еще и за белых играл, которыми не понятно откуда начинать действовать. Поменял на черных... Победа!

@темы: Игра

01:43 

Я уничтожу тебя, Императора Тьмы - Демона Гастарбайтера!
Ну раз я теперь Император Медуза буду играть за Aqua Force или Bermuda или Granblue.

@темы: Игра, Жизненное

01:19 

Я уничтожу тебя, Императора Тьмы - Демона Гастарбайтера!
Новый клан Genesis меня очень порадовал. Я начал просматривать карты 0,1,2 класса и был поражен, кучу карт на большое пополнение души и не одной на ее использование... Только одна карта в этом клане (пока что) может делать взрыв души...

@темы: Жизненное, Игра

23:13 

Я уничтожу тебя, Императора Тьмы - Демона Гастарбайтера!
Как же все-таки хочется поиграть в Готику 3... И даже не ради геймплея, а ради сценария, так хочется повыполнять все эти квесты... А потом пройти все части Ризена, она ведь отчасти продолжение. А вот в Готику 4 играть не очень хочу, разве что так побегать, квесты повыполнять. Жаль что я сейчас даже в 1-2 часть поиграть не могу. Основной компьютер сломался, т.к. блок питания опять сдох и всегда будет потихоньку сдыхать, т.к. у компьютера что-то не так с распределением электричества. Я сейчас сижу с комьютера с ОС Линукс Дебиан и мне запретили в ней что-либо менять, разве что выделили в ВиртуалБоксе Виндоус, но там ничего не работает. Я слышал что через новые обновления ВБ можно играться, но менять все равно ничего нельзя. Ну-с, буду пока что просто смотреть на что способен Дебиан. Я несколько команд уже выучил, но думаю создавать дреикторию мне нах не надо, а вот как запускать папки через терминал интересно... Перейти в какую-либо папку могу через терминал, но не включить. А также я до сих пор не пойму как прописывать путь установки. И еще почему-то у меня не получается вводить пароль в терминале, когда при некоторых коммандах появляется на него запрос. Хорошо что есть терминал администратора.

@темы: Готика, Жизненное, Игра

21:09 

Я уничтожу тебя, Императора Тьмы - Демона Гастарбайтера!
Как же хочется поиграть в Baldur's Gate 2 или в первый попробовать...

@темы: Игра

07:25 

Я уничтожу тебя, Императора Тьмы - Демона Гастарбайтера!
Если в ближайший месяц с Кагеро ничего не изменится, то я меняю клан... Надеюсь Теневых Паладинов скоро снова станет больше...
А так вариантов несколько которые меня действительно интересуют:
1. Королевские Паладины (Они стали весьма интересны).
2. Теневые Паладины (Но пока что слишком мало карт).
3. Мегаколония (Я хорошо знаю этот клан, но при этом пока что еще маловато карт).
4. Наемники (Большой клан и много карт).


А теперь рассмотрим плюсы.
1. Призыв союзников, новые карты по крупномасштабным атакам, сила атаки средняя.
2. Уничтожение союзников ради силы и пополнения своей армии, сила атаки средняя.
3. Позволяет "Замораживать" противников, тем самым получать преимущество, сила атаки чуть ниже среднего.
4. Большое пополнение души, атака одна из самых высоких, позволяет не тратить карты на встречный взрыв, но при всем этом очень быстро кончается колода (проигрыш).
запись создана: 19.01.2013 в 23:45

Вопрос: Какой клан выбрать?
1. Королевские Паладины.  1  (33.33%)
2. Теневые Паладины.  1  (33.33%)
3. Мегаколония.  0  (0%)
4. Наемники.  0  (0%)
5. Да забей, оставь Кагеро.  0  (0%)
6. А ведь есть другие кланы, приглядись к ним.  1  (33.33%)
Всего: 3

@темы: Игра, Жизненное

Мое пиратское логово.

главная